0
SECTION
2
HEADER
9
$INSUNITS
70
4
9
$ACADVER
1
AC1014
9
$HANDSEED
5
FFFF
0
ENDSEC
0
SECTION
2
TABLES
0
TABLE
2
VPORT
5
8
100
AcDbSymbolTable
0
ENDTAB
0
TABLE
2
LTYPE
5
5
100
AcDbSymbolTable
0
LTYPE
5
14
100
AcDbSymbolTableRecord
100
AcDbLinetypeTableRecord
2
BYBLOCK
70
0
0
LTYPE
5
15
100
AcDbSymbolTableRecord
100
AcDbLinetypeTableRecord
2
BYLAYER
70
0
0
ENDTAB
0
TABLE
2
LAYER
5
2
100
AcDbSymbolTable
70
2
0
LAYER
5
50
100
AcDbSymbolTableRecord
100
AcDbLayerTableRecord
2
0
70
0
6
CONTINUOUS
0
ENDTAB
0
TABLE
2
STYLE
5
3
100
AcDbSymbolTable
70
1
0
STYLE
5
11
100
AcDbSymbolTableRecord
100
AcDbTextStyleTableRecord
2
STANDARD
70
0
0
ENDTAB
0
TABLE
2
VIEW
5
6
100
AcDbSymbolTable
70
0
0
ENDTAB
0
TABLE
2
UCS
5
7
100
AcDbSymbolTable
70
0
0
ENDTAB
0
TABLE
2
APPID
5
9
100
AcDbSymbolTable
70
2
0
APPID
5
12
100
AcDbSymbolTableRecord
100
AcDbRegAppTableRecord
2
ACAD
70
0
0
ENDTAB
0
TABLE
2
DIMSTYLE
5
A
100
AcDbSymbolTable
70
1
0
ENDTAB
0
TABLE
2
BLOCK_RECORD
5
1
100
AcDbSymbolTable
70
1
0
BLOCK_RECORD
5
1F
100
AcDbSymbolTableRecord
100
AcDbBlockTableRecord
2
*MODEL_SPACE
0
BLOCK_RECORD
5
1B
100
AcDbSymbolTableRecord
100
AcDbBlockTableRecord
2
*PAPER_SPACE
0
ENDTAB
0
ENDSEC
0
SECTION
2
BLOCKS
0
BLOCK
5
20
100
AcDbEntity
100
AcDbBlockBegin
2
*MODEL_SPACE
0
ENDBLK
5
21
100
AcDbEntity
100
AcDbBlockEnd
0
BLOCK
5
1C
100
AcDbEntity
100
AcDbBlockBegin
2
*PAPER_SPACE
0
ENDBLK
5
1D
100
AcDbEntity
100
AcDbBlockEnd
0
ENDSEC
0
SECTION
2
ENTITIES
0
LINE
5
100
100
AcDbEntity
8
0
100
AcDbLine
10
119.99999999952637
20
-40.000000000157883
30
0
11
-120.00000000047363
21
-40.000000000157883
31
0
0
LINE
5
101
100
AcDbEntity
8
0
100
AcDbLine
10
-120.00000000047363
20
-40.000000000157883
30
0
11
-120.00000000047363
21
40.000000000157883
31
0
0
LINE
5
102
100
AcDbEntity
8
0
100
AcDbLine
10
-120.00000000047363
20
40.000000000157883
30
0
11
-80.236792555834285
21
40.000000000157883
31
0
0
LINE
5
103
100
AcDbEntity
8
0
100
AcDbLine
10
119.99999999952637
20
40.00000000015789
30
0
11
119.99999999952637
21
-40.000000000157883
31
0
0
LINE
5
104
100
AcDbEntity
8
0
100
AcDbLine
10
119.99999999952637
20
-40.000000000157883
30
0
11
-120.00000000047363
21
40.000000000157883
31
0
0
LINE
5
105
100
AcDbEntity
8
0
100
AcDbLine
10
-120.00000000047363
20
-40.000000000157883
30
0
11
119.99999999952637
21
40.00000000015789
31
0
0
LINE
5
106
100
AcDbEntity
8
0
100
AcDbLine
10
119.99999999952637
20
-40.000000000157883
30
0
11
199.99999999952638
21
-40.000000000157883
31
0
0
LINE
5
107
100
AcDbEntity
8
0
100
AcDbLine
10
-120.00000000047363
20
-40.000000000157883
30
0
11
-200.00000000047362
21
-40.000000000157883
31
0
0
ARC
5
108
100
AcDbEntity
8
0
100
AcDbCircle
10
-120.00000000047363
20
-39.99999999984211
30
0
40
80
100
AcDbArc
50
90
51
180
0
ARC
5
109
100
AcDbEntity
8
0
100
AcDbCircle
10
119.99999999952637
20
-39.99999999984211
30
0
40
80.000000000000014
100
AcDbArc
50
0
51
90
0
LINE
5
110
100
AcDbEntity
8
0
100
AcDbLine
10
29.763207444165705
20
1240.0000000001578
30
0
11
-30.236792555850052
21
1240.0000000001578
31
0
0
LINE
5
111
100
AcDbEntity
8
0
100
AcDbLine
10
-30.236792555850052
20
1240.0000000001578
30
0
11
-30.23679255583432
21
90.000000000157854
31
0
0
LINE
5
112
100
AcDbEntity
8
0
100
AcDbLine
10
-30.236792555834406
20
40.000000000157875
30
0
11
29.763207444149785
21
40.000000000157875
31
0
0
LINE
5
113
100
AcDbEntity
8
0
100
AcDbLine
10
29.763207444165708
20
90.000000000157854
30
0
11
29.763207444165705
21
1240.0000000001578
31
0
0
LINE
5
114
100
AcDbEntity
8
0
100
AcDbLine
10
29.763207444165705
20
1240.0000000001578
30
0
11
-30.236792555834406
21
40.000000000157875
31
0
0
LINE
5
115
100
AcDbEntity
8
0
100
AcDbLine
10
-30.236792555850052
20
1240.0000000001578
30
0
11
29.763207444149785
21
40.000000000157875
31
0
0
ARC
5
116
100
AcDbEntity
8
0
100
AcDbCircle
10
-80.236792555834285
20
90.000000000157854
30
0
40
49.999999999999964
100
AcDbArc
50
-90
51
0
0
LINE
5
117
100
AcDbEntity
8
0
100
AcDbLine
10
79.763207444165658
20
40.000000000157883
30
0
11
119.99999999952637
21
40.00000000015789
31
0
0
ARC
5
118
100
AcDbEntity
8
0
100
AcDbCircle
10
79.763207444165658
20
90.000000000157854
30
0
40
49.999999999999943
100
AcDbArc
50
180
51
270
0
LINE
5
119
100
AcDbEntity
8
0
100
AcDbLine
10
8.25
20
8.25
30
0
11
-8.25
21
8.25
31
0
0
LINE
5
120
100
AcDbEntity
8
0
100
AcDbLine
10
-8.25
20
8.25
30
0
11
-8.25
21
-8.25
31
0
0
LINE
5
121
100
AcDbEntity
8
0
100
AcDbLine
10
-8.25
20
-8.25
30
0
11
8.25
21
-8.25
31
0
0
LINE
5
122
100
AcDbEntity
8
0
100
AcDbLine
10
8.25
20
-8.25
30
0
11
8.25
21
8.25
31
0
0
LINE
5
123
100
AcDbEntity
8
0
100
AcDbLine
10
8.25
20
8.25
30
0
11
-8.25
21
-8.25
31
0
0
LINE
5
124
100
AcDbEntity
8
0
100
AcDbLine
10
-8.25
20
8.25
30
0
11
8.25
21
-8.25
31
0
0
LWPOLYLINE
5
125
100
AcDbEntity
8
0
100
AcDbPolyline
90
4
70
1
43
0.0
10
-71.75
20
-8.25
10
-88.25
20
-8.25
10
-88.25
20
8.25
10
-71.75
20
8.25
0
LWPOLYLINE
5
126
100
AcDbEntity
8
0
100
AcDbPolyline
90
4
70
1
43
0.0
10
-31.75
20
-8.25
10
-48.249999999999993
20
-8.25
10
-48.249999999999993
20
8.25
10
-31.75
20
8.25
0
LWPOLYLINE
5
127
100
AcDbEntity
8
0
100
AcDbPolyline
90
4
70
1
43
0.0
10
48.249999999999993
20
-8.25
10
31.75
20
-8.25
10
31.75
20
8.25
10
48.249999999999993
20
8.25
0
LWPOLYLINE
5
128
100
AcDbEntity
8
0
100
AcDbPolyline
90
4
70
1
43
0.0
10
88.25
20
-8.25
10
71.75
20
-8.25
10
71.75
20
8.25
10
88.25
20
8.25
0
LWPOLYLINE
5
129
100
AcDbEntity
8
0
100
AcDbPolyline
90
4
70
1
43
0.0
10
-104.50000000047362
20
-39.99999999984211
10
-120.00000000047363
20
-39.99999999984211
10
-120.00000000047363
20
1.578864239612236e-10
10
-104.50000000047362
20
1.5788703677799276e-10
0
LWPOLYLINE
5
130
100
AcDbEntity
8
0
100
AcDbPolyline
90
4
70
1
43
0.0
10
104.49999999952637
20
-39.999999999842103
10
119.99999999952637
20
-39.99999999984211
10
119.99999999952637
20
1.5788335615441937e-10
10
104.49999999952637
20
1.5788703677799276e-10
0
LINE
5
131
100
AcDbEntity
8
0
100
AcDbLine
10
8.0132074441577004
20
631.75000000000011
30
0
11
-8.486792555842257
21
631.75000000000011
31
0
0
LINE
5
132
100
AcDbEntity
8
0
100
AcDbLine
10
-8.486792555842257
20
631.75000000000011
30
0
11
-8.4867925558422606
21
648.25
31
0
0
LINE
5
133
100
AcDbEntity
8
0
100
AcDbLine
10
-8.4867925558422606
20
648.25
30
0
11
8.0132074441577004
21
648.25
31
0
0
LINE
5
134
100
AcDbEntity
8
0
100
AcDbLine
10
8.0132074441577004
20
648.25
30
0
11
8.0132074441577004
21
631.75000000000011
31
0
0
LINE
5
135
100
AcDbEntity
8
0
100
AcDbLine
10
8.0132074441577004
20
631.75000000000011
30
0
11
-8.4867925558422606
21
648.25
31
0
0
LINE
5
136
100
AcDbEntity
8
0
100
AcDbLine
10
-8.486792555842257
20
631.75000000000011
30
0
11
8.0132074441577004
21
648.25
31
0
0
LWPOLYLINE
5
137
100
AcDbEntity
8
0
100
AcDbPolyline
90
4
70
1
43
0.0
10
-8.4867925558422606
20
248.24999999999994
10
-8.486792555842257
20
231.74999999999997
10
8.0132074441577004
20
231.74999999999997
10
8.0132074441577004
20
248.24999999999994
0
LWPOLYLINE
5
138
100
AcDbEntity
8
0
100
AcDbPolyline
90
4
70
1
43
0.0
10
-8.4867925558422606
20
448.25
10
-8.486792555842257
20
431.75000000000006
10
8.0132074441577004
20
431.75000000000006
10
8.0132074441577004
20
448.25
0
LWPOLYLINE
5
139
100
AcDbEntity
8
0
100
AcDbPolyline
90
4
70
1
43
0.0
10
-8.4867925558422606
20
848.25000000000023
10
-8.486792555842257
20
831.75000000000011
10
8.0132074441577004
20
831.75000000000011
10
8.0132074441577004
20
848.25000000000023
0
LWPOLYLINE
5
140
100
AcDbEntity
8
0
100
AcDbPolyline
90
4
70
1
43
0.0
10
-8.4867925558422606
20
1048.2500000000002
10
-8.486792555842257
20
1031.7500000000002
10
8.0132074441577004
20
1031.7500000000002
10
8.0132074441577004
20
1048.2500000000002
0
LWPOLYLINE
5
141
100
AcDbEntity
8
0
100
AcDbPolyline
90
18
70
1
43
0.0
10
-210
20
-470
10
210
20
-470
10
210
20
-390
10
-210
20
-390
10
-210
20
-470
10
210
20
-390
10
194.5
20
-390
10
194.5
20
-430
10
210
20
-430
10
210
20
-390
42
-0.41421356237309509
10
290
20
-470
10
210
20
-470
10
-210
20
-390
10
-194.5
20
-390
10
-194.5
20
-430
10
-210
20
-430
10
-210
20
-390
42
0.41421356237309509
10
-290
20
-470
0
LINE
5
142
100
AcDbEntity
8
0
100
AcDbLine
10
-44.999999999999204
20
-835.00524403377983
30
0
11
-209.99997956445588
21
-835.00524403377983
31
0
0
LINE
5
143
100
AcDbEntity
8
0
100
AcDbLine
10
-209.99997956445588
20
-835.00524403377983
30
0
11
-209.99997956445594
21
-915.00524403377972
31
0
0
LINE
5
144
100
AcDbEntity
8
0
100
AcDbLine
10
-209.99997956445594
20
-915.00524403377972
30
0
11
210.00002043554406
21
-915.00524403378006
31
0
0
LINE
5
145
100
AcDbEntity
8
0
100
AcDbLine
10
210.00002043554406
20
-915.00524403378006
30
0
11
210.00002043554406
21
-835.00524433085218
31
0
0
LINE
5
146
100
AcDbEntity
8
0
100
AcDbLine
10
210.00002043554406
20
-835.00524433085218
30
0
11
-209.99997956445594
21
-915.00524403377972
31
0
0
LINE
5
147
100
AcDbEntity
8
0
100
AcDbLine
10
-209.99997956445588
20
-835.00524403377983
30
0
11
210.00002043554406
21
-915.00524403378006
31
0
0
LINE
5
148
100
AcDbEntity
8
0
100
AcDbLine
10
210.00002043554406
20
-915.00524403378006
30
0
11
290.00002043536909
21
-915.00541137383766
31
0
0
LINE
5
149
100
AcDbEntity
8
0
100
AcDbLine
10
-209.99997956445594
20
-915.00524403377972
30
0
11
-289.99997956430644
21
-915.00539871185629
31
0
0
ARC
5
150
100
AcDbEntity
8
0
100
AcDbCircle
10
-209.99997956445597
20
-915.00524403377983
30
0
40
80
100
AcDbArc
50
89.999999999999929
51
180.00011077692494
0
ARC
5
151
100
AcDbEntity
8
0
100
AcDbCircle
10
210.00691445280438
20
-914.99835032798603
30
0
40
79.99310629420637
100
AcDbArc
50
-0.0050575373823676037
51
90.004937901672974
0
LWPOLYLINE
5
152
100
AcDbEntity
8
0
100
AcDbPolyline
90
4
70
1
43
0.0
10
-194.49997956445588
20
-915.00524403377983
10
-209.99997956445597
20
-915.00524403377983
10
-209.99997956445597
20
-875.00524403377983
10
-194.49997956445588
20
-875.00524403377983
0
LWPOLYLINE
5
153
100
AcDbEntity
8
0
100
AcDbPolyline
90
4
70
1
43
0.0
10
194.50691445280438
20
-914.99835032798603
10
210.00691445280438
20
-914.99835032798603
10
210.00691445280441
20
-874.99835032798615
10
194.50691445280438
20
-874.99835032798615
0
LWPOLYLINE
5
154
100
AcDbEntity
8
0
100
AcDbPolyline
90
4
70
1
43
0.0
10
-248.6292765248549
20
-900.25961215469761
10
-288.6292765248549
20
-900.25961215469761
10
-288.6292765248549
20
-884.75961215469761
10
-248.6292765248549
20
-884.75961215469761
0
LWPOLYLINE
5
155
100
AcDbEntity
8
0
100
AcDbPolyline
90
4
70
1
43
0.0
10
248.63024537880807
20
-900.25830661379371
10
288.63024537880807
20
-900.25830661379371
10
288.63024537880807
20
-884.75830661379382
10
248.63024537880807
20
-884.75830661379382
0
LINE
5
156
100
AcDbEntity
8
0
100
AcDbLine
10
40
20
-835
30
0
11
-40
21
-835
31
0
0
LINE
5
157
100
AcDbEntity
8
0
100
AcDbLine
10
-39.99999999999919
20
-830.00524403377983
30
0
11
-40
21
-795
31
0
0
LINE
5
158
100
AcDbEntity
8
0
100
AcDbLine
10
-40
20
-795
30
0
11
40
21
-795
31
0
0
LINE
5
159
100
AcDbEntity
8
0
100
AcDbLine
10
40
20
-795
30
0
11
40.000000000000711
21
-830.01946445006479
31
0
0
LINE
5
160
100
AcDbEntity
8
0
100
AcDbLine
10
40
20
-835
30
0
11
-40
21
-795
31
0
0
LINE
5
161
100
AcDbEntity
8
0
100
AcDbLine
10
-40
20
-835
30
0
11
40
21
-795
31
0
0
ARC
5
162
100
AcDbEntity
8
0
100
AcDbCircle
10
-44.999999999999204
20
-830.00524403377983
30
0
40
5
100
AcDbArc
50
-90
51
0
0
LINE
5
163
100
AcDbEntity
8
0
100
AcDbLine
10
45.00043091321178
20
-835.0194644314962
30
0
11
210.00002043554406
21
-835.00524433085218
31
0
0
ARC
5
164
100
AcDbEntity
8
0
100
AcDbCircle
10
45.000000000000654
20
-830.01946445006479
30
0
40
4.9999999999999467
100
AcDbArc
50
180
51
270.00493790167292
0
LINE
5
165
100
AcDbEntity
8
0
100
AcDbLine
10
169.99995641909686
20
-890.00597472375887
30
0
11
-169.99991476819471
21
-890.00597472375887
31
0
0
LINE
5
166
100
AcDbEntity
8
0
100
AcDbLine
10
-169.99991476819471
20
-890.00597472375887
30
0
11
-169.99991476819471
21
-860.00451349233697
31
0
0
LINE
5
167
100
AcDbEntity
8
0
100
AcDbLine
10
-169.99991476819471
20
-860.00451349233697
30
0
11
169.99995641909686
21
-860.00451349233697
31
0
0
LINE
5
168
100
AcDbEntity
8
0
100
AcDbLine
10
169.99995641909686
20
-860.00451349233697
30
0
11
169.99995641909686
21
-890.00597472375887
31
0
0
LINE
5
169
100
AcDbEntity
8
0
100
AcDbLine
10
169.99995641909686
20
-890.00597472375887
30
0
11
-169.99991476819471
21
-860.00451349233697
31
0
0
LINE
5
170
100
AcDbEntity
8
0
100
AcDbLine
10
-169.99991476819471
20
-890.00597472375887
30
0
11
169.99995641909686
21
-860.00451349233697
31
0
0
ELLIPSE
5
171
100
AcDbEntity
8
0
100
AcDbEllipse
10
-0.0095215431328019868
20
-1260.282674366031
30
0
11
150
21
1.2408466494764427e-23
31
0.0
40
0.66666666666666674
41
-1.5707963267948966
42
4.7123889803846897
0
LINE
5
172
100
AcDbEntity
8
0
100
AcDbLine
10
-0.0095215431327836161
20
-1160.282674366031
30
0
11
-0.0095215431328019868
21
-1360.2826743660307
31
0
0
LINE
5
173
100
AcDbEntity
8
0
100
AcDbLine
10
-150.00952154313279
20
-1260.282674366031
30
0
11
149.99047845686721
21
-1260.282674366031
31
0
0
LINE
5
174
100
AcDbEntity
8
0
100
AcDbLine
10
39.99047845686664
20
-1268.0326743660307
30
0
11
-40.009521543133374
21
-1268.0326743660307
31
0
0
LINE
5
175
100
AcDbEntity
8
0
100
AcDbLine
10
-40.009521543133374
20
-1268.0326743660307
30
0
11
-40.009521543133374
21
-1252.5326743660307
31
0
0
LINE
5
176
100
AcDbEntity
8
0
100
AcDbLine
10
-40.009521543133374
20
-1252.5326743660307
30
0
11
39.99047845686664
21
-1252.5326743660307
31
0
0
LINE
5
177
100
AcDbEntity
8
0
100
AcDbLine
10
39.99047845686664
20
-1252.5326743660307
30
0
11
39.99047845686664
21
-1268.0326743660307
31
0
0
LINE
5
178
100
AcDbEntity
8
0
100
AcDbLine
10
39.99047845686664
20
-1268.0326743660307
30
0
11
-40.009521543133374
21
-1252.5326743660307
31
0
0
LINE
5
179
100
AcDbEntity
8
0
100
AcDbLine
10
-40.009521543133374
20
-1268.0326743660307
30
0
11
39.99047845686664
21
-1252.5326743660307
31
0
0
LINE
5
180
100
AcDbEntity
8
0
100
AcDbLine
10
47.740478456867777
20
-1244.7826743660307
30
0
11
-47.75952154313223
21
-1244.7826743660307
31
0
0
LINE
5
181
100
AcDbEntity
8
0
100
AcDbLine
10
-47.75952154313223
20
-1244.7826743660307
30
0
11
-47.75952154313223
21
-1275.7826743660307
31
0
0
LINE
5
182
100
AcDbEntity
8
0
100
AcDbLine
10
-47.75952154313223
20
-1275.7826743660307
30
0
11
47.740478456867777
21
-1275.7826743660307
31
0
0
LINE
5
183
100
AcDbEntity
8
0
100
AcDbLine
10
47.740478456867777
20
-1275.7826743660307
30
0
11
47.740478456867777
21
-1244.7826743660307
31
0
0
LINE
5
184
100
AcDbEntity
8
0
100
AcDbLine
10
47.740478456867777
20
-1244.7826743660307
30
0
11
-47.75952154313223
21
-1275.7826743660307
31
0
0
LINE
5
185
100
AcDbEntity
8
0
100
AcDbLine
10
-47.75952154313223
20
-1244.7826743660307
30
0
11
47.740478456867777
21
-1275.7826743660307
31
0
0
LINE
5
186
100
AcDbEntity
8
0
100
AcDbLine
10
-0.0095215431328019868
20
-1360.2826743660307
30
0
11
-0.0095215431327885687
21
-1344.7826743660307
31
0
0
LINE
5
187
100
AcDbEntity
8
0
100
AcDbLine
10
149.99047845686721
20
-1260.282674366031
30
0
11
134.49047845686718
21
-1260.282674366031
31
0
0
ELLIPSE
5
188
100
AcDbEntity
8
0
100
AcDbEllipse
10
-0.0095215431328019868
20
-1260.282674366031
30
0
11
134.5
21
2.1355819483177565e-14
31
0.0
40
0.62825278810408836
41
-1.5707963267948966
42
4.7123889803846897
0
LINE
5
189
100
AcDbEntity
8
0
100
AcDbLine
10
-0.0095215431327989319
20
-1175.782674366031
30
0
11
-0.0095215431327885687
21
-1344.7826743660307
31
0
0
LINE
5
190
100
AcDbEntity
8
0
100
AcDbLine
10
-134.50952154313279
20
-1260.282674366031
30
0
11
134.49047845686718
21
-1260.282674366031
31
0
0
LINE
5
191
100
AcDbEntity
8
0
100
AcDbLine
10
-0.2367925558421749
20
1240.0000000001578
30
0
11
-0.23679255584217246
21
1200.1742156463747
31
0
0
LINE
5
192
100
AcDbEntity
8
0
100
AcDbLine
10
7.5132074441736734
20
1240.0871078232656
30
0
11
-7.9867925558263275
21
1240.0871078232656
31
0
0
LINE
5
193
100
AcDbEntity
8
0
100
AcDbLine
10
-7.9867925558263275
20
1240.0871078232656
30
0
11
-7.9867925558263275
21
1200.0871078232656
31
0
0
LINE
5
194
100
AcDbEntity
8
0
100
AcDbLine
10
-7.9867925558263275
20
1200.0871078232656
30
0
11
7.5132074441736734
21
1200.0871078232656
31
0
0
LINE
5
195
100
AcDbEntity
8
0
100
AcDbLine
10
7.5132074441736734
20
1200.0871078232656
30
0
11
7.5132074441736734
21
1240.0871078232656
31
0
0
LINE
5
196
100
AcDbEntity
8
0
100
AcDbLine
10
7.5132074441736734
20
1240.0871078232656
30
0
11
-7.9867925558263275
21
1200.0871078232656
31
0
0
LINE
5
197
100
AcDbEntity
8
0
100
AcDbLine
10
-7.9867925558263275
20
1240.0871078232656
30
0
11
7.5132074441736734
21
1200.0871078232656
31
0
0
ARC
5
198
100
AcDbEntity
8
0
100
AcDbCircle
10
17.00000025331974
20
1200.0000178813934
30
0
40
47.236792809153989
100
AcDbArc
50
121.93581181903184
51
180
0
ARC
5
199
100
AcDbEntity
8
0
100
AcDbCircle
10
-17.316848735618592
20
1200.0871078232656
30
0
40
47.080056179784279
100
AcDbArc
50
0
51
58.169999470431776
0
LINE
5
200
100
AcDbEntity
8
0
100
AcDbLine
10
245.00000000000003
20
-192.5
30
0
11
-245.00000000000003
21
-192.5
31
0
0
LINE
5
201
100
AcDbEntity
8
0
100
AcDbLine
10
-245.00000000000003
20
-192.5
30
0
11
-245.00000000000003
21
-207.5
31
0
0
LINE
5
202
100
AcDbEntity
8
0
100
AcDbLine
10
-245.00000000000003
20
-207.5
30
0
11
245.00000000000003
21
-207.5
31
0
0
LINE
5
203
100
AcDbEntity
8
0
100
AcDbLine
10
245.00000000000003
20
-207.5
30
0
11
245.00000000000003
21
-192.5
31
0
0
LINE
5
204
100
AcDbEntity
8
0
100
AcDbLine
10
245.00000000000003
20
-192.5
30
0
11
-245.00000000000003
21
-207.5
31
0
0
LINE
5
205
100
AcDbEntity
8
0
100
AcDbLine
10
-245.00000000000003
20
-192.5
30
0
11
245.00000000000003
21
-207.5
31
0
0
ENDSEC
0
SECTION
2
OBJECTS
0
DICTIONARY
5
C
100
AcDbDictionary
3
ACAD_GROUP
350
D
3
ACAD_MLINESTYLE
350
17
0
DICTIONARY
5
D
100
AcDbDictionary
0
DICTIONARY
5
1A
330
C
100
AcDbDictionary
0
DICTIONARY
5
17
100
AcDbDictionary
0
ENDSEC
0
EOF
